ISO-10303-21;
HEADER;
/* Generated by software containing ST-Developer
 * from STEP Tools, Inc. (www.steptools.com) 
 */

FILE_DESCRIPTION(
/* description */ ('Alibre Inc.'),
/* implementation_level */ '2;1');

FILE_NAME(
/* name */ 'export0',
/* time_stamp */ '2016-06-29T11:21:41+02:00',
/* author */ (''),
/* organization */ (''),
/* preprocessor_version */ 'ST-DEVELOPER v14',
/* originating_system */ 'Alibre',
/* authorisation */ '');

FILE_SCHEMA (('AUTOMOTIVE_DESIGN'));
ENDSEC;

DATA;
#10=CONTEXT_DEPENDENT_SHAPE_REPRESENTATION(#19,#59);
#11=CONTEXT_DEPENDENT_SHAPE_REPRESENTATION(#20,#60);
#12=CONTEXT_DEPENDENT_SHAPE_REPRESENTATION(#21,#61);
#13=NEXT_ASSEMBLY_USAGE_OCCURRENCE('NAUO_ID9','NAUO_NAME9',$,#65,#62,$);
#14=NEXT_ASSEMBLY_USAGE_OCCURRENCE('NAUO_ID19','NAUO_NAME19',$,#65,#63,$);
#15=NEXT_ASSEMBLY_USAGE_OCCURRENCE('NAUO_ID29','NAUO_NAME29',$,#65,#64,$);
#16=ITEM_DEFINED_TRANSFORMATION('ITD_NAME0',$,#388,#387);
#17=ITEM_DEFINED_TRANSFORMATION('ITD_NAME10',$,#390,#389);
#18=ITEM_DEFINED_TRANSFORMATION('ITD_NAME20',$,#392,#391);
#19=(
REPRESENTATION_RELATIONSHIP('Leiterplatte_3',$,#84,#87)
REPRESENTATION_RELATIONSHIP_WITH_TRANSFORMATION(#16)
SHAPE_REPRESENTATION_RELATIONSHIP()
);
#20=(
REPRESENTATION_RELATIONSHIP('Leiterplatte_3_Bauteile_1',$,#85,#87)
REPRESENTATION_RELATIONSHIP_WITH_TRANSFORMATION(#17)
SHAPE_REPRESENTATION_RELATIONSHIP()
);
#21=(
REPRESENTATION_RELATIONSHIP('Leiterplatte_3_Bauteile_2',$,#86,#87)
REPRESENTATION_RELATIONSHIP_WITH_TRANSFORMATION(#18)
SHAPE_REPRESENTATION_RELATIONSHIP()
);
#22=STYLED_ITEM('NAME_0',(#44),#564);
#23=STYLED_ITEM('NAME_0',(#45),#565);
#24=STYLED_ITEM('NAME_0',(#46),#566);
#25=MECHANICAL_DESIGN_GEOMETRIC_PRESENTATION_REPRESENTATION('NAME_0',(#22,
#23,#24),#107);
#26=COLOUR_RGB('',0.,0.501960784313725,0.);
#27=COLOUR_RGB('',0.752941176470588,0.752941176470588,0.752941176470588);
#28=COLOUR_RGB('',0.752941176470588,0.752941176470588,0.752941176470588);
#29=FILL_AREA_STYLE_COLOUR('NAME_0',#26);
#30=FILL_AREA_STYLE_COLOUR('NAME_0',#27);
#31=FILL_AREA_STYLE_COLOUR('NAME_0',#28);
#32=FILL_AREA_STYLE('NAME_0',(#29));
#33=FILL_AREA_STYLE('NAME_0',(#30));
#34=FILL_AREA_STYLE('NAME_0',(#31));
#35=SURFACE_STYLE_FILL_AREA(#32);
#36=SURFACE_STYLE_FILL_AREA(#33);
#37=SURFACE_STYLE_FILL_AREA(#34);
#38=SURFACE_SIDE_STYLE('NAME_0',(#35));
#39=SURFACE_SIDE_STYLE('NAME_0',(#36));
#40=SURFACE_SIDE_STYLE('NAME_0',(#37));
#41=SURFACE_STYLE_USAGE(.POSITIVE.,#38);
#42=SURFACE_STYLE_USAGE(.POSITIVE.,#39);
#43=SURFACE_STYLE_USAGE(.POSITIVE.,#40);
#44=PRESENTATION_STYLE_ASSIGNMENT((#41));
#45=PRESENTATION_STYLE_ASSIGNMENT((#42));
#46=PRESENTATION_STYLE_ASSIGNMENT((#43));
#47=PRODUCT_DEFINITION_CONTEXT('part definition',#75,'design');
#48=PRODUCT_DEFINITION_CONTEXT('part definition',#75,'design');
#49=PRODUCT_DEFINITION_CONTEXT('part definition',#75,'design');
#50=PRODUCT_DEFINITION_CONTEXT('part definition',#75,'design');
#51=SHAPE_DEFINITION_REPRESENTATION(#55,#84);
#52=SHAPE_DEFINITION_REPRESENTATION(#56,#85);
#53=SHAPE_DEFINITION_REPRESENTATION(#57,#86);
#54=SHAPE_DEFINITION_REPRESENTATION(#58,#87);
#55=PRODUCT_DEFINITION_SHAPE('PRODUCT_VERSION_ID',
'PRODUCT_VERSION_DESCR',#62);
#56=PRODUCT_DEFINITION_SHAPE('PRODUCT_VERSION_ID',
'PRODUCT_VERSION_DESCR',#63);
#57=PRODUCT_DEFINITION_SHAPE('PRODUCT_VERSION_ID',
'PRODUCT_VERSION_DESCR',#64);
#58=PRODUCT_DEFINITION_SHAPE('PRODUCT_VERSION_ID',
'PRODUCT_VERSION_DESCR',#65);
#59=PRODUCT_DEFINITION_SHAPE('NAME_10',$,#13);
#60=PRODUCT_DEFINITION_SHAPE('NAME_20',$,#14);
#61=PRODUCT_DEFINITION_SHAPE('NAME_30',$,#15);
#62=PRODUCT_DEFINITION('Leiterplatte_3','PRODUCT_VERSION_DESCR',#66,#47);
#63=PRODUCT_DEFINITION('Leiterplatte_3_Bauteile_1',
'PRODUCT_VERSION_DESCR',#67,#48);
#64=PRODUCT_DEFINITION('Leiterplatte_3_Bauteile_2',
'PRODUCT_VERSION_DESCR',#68,#49);
#65=PRODUCT_DEFINITION('PRODUCT_VERSION_ID','PRODUCT_VERSION_DESCR',#69,
#50);
#66=PRODUCT_DEFINITION_FORMATION_WITH_SPECIFIED_SOURCE(
'PRODUCT_VERSION_ID','PRODUCT_VERSION_DESCR',#80,.MADE.);
#67=PRODUCT_DEFINITION_FORMATION_WITH_SPECIFIED_SOURCE(
'PRODUCT_VERSION_ID','PRODUCT_VERSION_DESCR',#81,.MADE.);
#68=PRODUCT_DEFINITION_FORMATION_WITH_SPECIFIED_SOURCE(
'PRODUCT_VERSION_ID','PRODUCT_VERSION_DESCR',#82,.MADE.);
#69=PRODUCT_DEFINITION_FORMATION_WITH_SPECIFIED_SOURCE(
'PRODUCT_VERSION_ID','PRODUCT_VERSION_DESCR',#83,.MADE.);
#70=PRODUCT_RELATED_PRODUCT_CATEGORY('part','part',(#80));
#71=PRODUCT_RELATED_PRODUCT_CATEGORY('part','part',(#81));
#72=PRODUCT_RELATED_PRODUCT_CATEGORY('part','part',(#82));
#73=PRODUCT_RELATED_PRODUCT_CATEGORY('part','part',(#83));
#74=APPLICATION_PROTOCOL_DEFINITION('Draft International Standard',
'automotive_design',1994,#75);
#75=APPLICATION_CONTEXT('automotive_Design');
#76=PRODUCT_CONTEXT('3D Mechanical Parts',#75,'mechanical');
#77=PRODUCT_CONTEXT('3D Mechanical Parts',#75,'mechanical');
#78=PRODUCT_CONTEXT('3D Mechanical Parts',#75,'mechanical');
#79=PRODUCT_CONTEXT('3D Mechanical Parts',#75,'mechanical');
#80=PRODUCT('','Leiterplatte_3','',(#76));
#81=PRODUCT('','Leiterplatte_3_Bauteile_1','',(#77));
#82=PRODUCT('','Leiterplatte_3_Bauteile_2','',(#78));
#83=PRODUCT('','Leiterplatte_3','',(#79));
#84=SHAPE_REPRESENTATION('Leiterplatte_3',(#388),#107);
#85=SHAPE_REPRESENTATION('Leiterplatte_3_Bauteile_1',(#390),#108);
#86=SHAPE_REPRESENTATION('Leiterplatte_3_Bauteile_2',(#392),#109);
#87=SHAPE_REPRESENTATION('NAME_0',(#387,#389,#391),#110);
#88=SHAPE_REPRESENTATION_RELATIONSHIP('NAME_0',$,#84,#567);
#89=SHAPE_REPRESENTATION_RELATIONSHIP('NAME_0',$,#85,#568);
#90=SHAPE_REPRESENTATION_RELATIONSHIP('NAME_0',$,#86,#569);
#91=(
LENGTH_UNIT()
NAMED_UNIT(*)
SI_UNIT(.CENTI.,.METRE.)
);
#92=(
LENGTH_UNIT()
NAMED_UNIT(*)
SI_UNIT(.CENTI.,.METRE.)
);
#93=(
LENGTH_UNIT()
NAMED_UNIT(*)
SI_UNIT(.CENTI.,.METRE.)
);
#94=(
LENGTH_UNIT()
NAMED_UNIT(*)
SI_UNIT(.CENTI.,.METRE.)
);
#95=(
NAMED_UNIT(*)
PLANE_ANGLE_UNIT()
SI_UNIT($,.RADIAN.)
);
#96=(
NAMED_UNIT(*)
PLANE_ANGLE_UNIT()
SI_UNIT($,.RADIAN.)
);
#97=(
NAMED_UNIT(*)
PLANE_ANGLE_UNIT()
SI_UNIT($,.RADIAN.)
);
#98=(
NAMED_UNIT(*)
PLANE_ANGLE_UNIT()
SI_UNIT($,.RADIAN.)
);
#99=(
NAMED_UNIT(*)
SI_UNIT($,.STERADIAN.)
SOLID_ANGLE_UNIT()
);
#100=(
NAMED_UNIT(*)
SI_UNIT($,.STERADIAN.)
SOLID_ANGLE_UNIT()
);
#101=(
NAMED_UNIT(*)
SI_UNIT($,.STERADIAN.)
SOLID_ANGLE_UNIT()
);
#102=(
NAMED_UNIT(*)
SI_UNIT($,.STERADIAN.)
SOLID_ANGLE_UNIT()
);
#103=UNCERTAINTY_MEASURE_WITH_UNIT(LENGTH_MEASURE(1.E-006),#91,
'DISTANCE_ACCURACY_VALUE',
'Maximum model space distance between geometric entities at asserted co
nnectivities');
#104=UNCERTAINTY_MEASURE_WITH_UNIT(LENGTH_MEASURE(1.E-006),#92,
'DISTANCE_ACCURACY_VALUE',
'Maximum model space distance between geometric entities at asserted co
nnectivities');
#105=UNCERTAINTY_MEASURE_WITH_UNIT(LENGTH_MEASURE(1.E-006),#93,
'DISTANCE_ACCURACY_VALUE',
'Maximum model space distance between geometric entities at asserted co
nnectivities');
#106=UNCERTAINTY_MEASURE_WITH_UNIT(LENGTH_MEASURE(1.E-006),#94,
'DISTANCE_ACCURACY_VALUE',
'Maximum model space distance between geometric entities at asserted co
nnectivities');
#107=(
GEOMETRIC_REPRESENTATION_CONTEXT(3)
GLOBAL_UNCERTAINTY_ASSIGNED_CONTEXT((#103))
GLOBAL_UNIT_ASSIGNED_CONTEXT((#99,#95,#91))
REPRESENTATION_CONTEXT('ID1','3D')
);
#108=(
GEOMETRIC_REPRESENTATION_CONTEXT(3)
GLOBAL_UNCERTAINTY_ASSIGNED_CONTEXT((#104))
GLOBAL_UNIT_ASSIGNED_CONTEXT((#100,#96,#92))
REPRESENTATION_CONTEXT('ID1','3D')
);
#109=(
GEOMETRIC_REPRESENTATION_CONTEXT(3)
GLOBAL_UNCERTAINTY_ASSIGNED_CONTEXT((#105))
GLOBAL_UNIT_ASSIGNED_CONTEXT((#101,#97,#93))
REPRESENTATION_CONTEXT('ID1','3D')
);
#110=(
GEOMETRIC_REPRESENTATION_CONTEXT(3)
GLOBAL_UNCERTAINTY_ASSIGNED_CONTEXT((#106))
GLOBAL_UNIT_ASSIGNED_CONTEXT((#102,#98,#94))
REPRESENTATION_CONTEXT('ID1','3D')
);
#111=VERTEX_POINT('',#461);
#112=VERTEX_POINT('',#462);
#113=VERTEX_POINT('',#464);
#114=VERTEX_POINT('',#466);
#115=VERTEX_POINT('',#470);
#116=VERTEX_POINT('',#472);
#117=VERTEX_POINT('',#476);
#118=VERTEX_POINT('',#478);
#119=VERTEX_POINT('',#487);
#120=VERTEX_POINT('',#488);
#121=VERTEX_POINT('',#490);
#122=VERTEX_POINT('',#492);
#123=VERTEX_POINT('',#496);
#124=VERTEX_POINT('',#498);
#125=VERTEX_POINT('',#502);
#126=VERTEX_POINT('',#504);
#127=VERTEX_POINT('',#513);
#128=VERTEX_POINT('',#514);
#129=VERTEX_POINT('',#516);
#130=VERTEX_POINT('',#518);
#131=VERTEX_POINT('',#522);
#132=VERTEX_POINT('',#524);
#133=VERTEX_POINT('',#528);
#134=VERTEX_POINT('',#530);
#135=VECTOR('',#394,1.);
#136=VECTOR('',#395,1.);
#137=VECTOR('',#396,1.);
#138=VECTOR('',#397,1.);
#139=VECTOR('',#399,1.);
#140=VECTOR('',#400,1.);
#141=VECTOR('',#401,1.);
#142=VECTOR('',#403,1.);
#143=VECTOR('',#404,1.);
#144=VECTOR('',#405,1.);
#145=VECTOR('',#407,1.);
#146=VECTOR('',#408,1.);
#147=VECTOR('',#412,1.);
#148=VECTOR('',#413,1.);
#149=VECTOR('',#414,1.);
#150=VECTOR('',#415,1.);
#151=VECTOR('',#417,1.);
#152=VECTOR('',#418,1.);
#153=VECTOR('',#419,1.);
#154=VECTOR('',#421,1.);
#155=VECTOR('',#422,1.);
#156=VECTOR('',#423,1.);
#157=VECTOR('',#425,1.);
#158=VECTOR('',#426,1.);
#159=VECTOR('',#430,1.);
#160=VECTOR('',#431,1.);
#161=VECTOR('',#432,1.);
#162=VECTOR('',#433,1.);
#163=VECTOR('',#435,1.);
#164=VECTOR('',#436,1.);
#165=VECTOR('',#437,1.);
#166=VECTOR('',#439,1.);
#167=VECTOR('',#440,1.);
#168=VECTOR('',#441,1.);
#169=VECTOR('',#443,1.);
#170=VECTOR('',#444,1.);
#171=LINE('',#460,#135);
#172=LINE('',#463,#136);
#173=LINE('',#465,#137);
#174=LINE('',#467,#138);
#175=LINE('',#469,#139);
#176=LINE('',#471,#140);
#177=LINE('',#473,#141);
#178=LINE('',#475,#142);
#179=LINE('',#477,#143);
#180=LINE('',#479,#144);
#181=LINE('',#481,#145);
#182=LINE('',#482,#146);
#183=LINE('',#486,#147);
#184=LINE('',#489,#148);
#185=LINE('',#491,#149);
#186=LINE('',#493,#150);
#187=LINE('',#495,#151);
#188=LINE('',#497,#152);
#189=LINE('',#499,#153);
#190=LINE('',#501,#154);
#191=LINE('',#503,#155);
#192=LINE('',#505,#156);
#193=LINE('',#507,#157);
#194=LINE('',#508,#158);
#195=LINE('',#512,#159);
#196=LINE('',#515,#160);
#197=LINE('',#517,#161);
#198=LINE('',#519,#162);
#199=LINE('',#521,#163);
#200=LINE('',#523,#164);
#201=LINE('',#525,#165);
#202=LINE('',#527,#166);
#203=LINE('',#529,#167);
#204=LINE('',#531,#168);
#205=LINE('',#533,#169);
#206=LINE('',#534,#170);
#207=EDGE_CURVE('',#111,#112,#171,.T.);
#208=EDGE_CURVE('',#113,#112,#172,.T.);
#209=EDGE_CURVE('',#114,#113,#173,.T.);
#210=EDGE_CURVE('',#114,#111,#174,.T.);
#211=EDGE_CURVE('',#112,#115,#175,.T.);
#212=EDGE_CURVE('',#116,#115,#176,.T.);
#213=EDGE_CURVE('',#113,#116,#177,.T.);
#214=EDGE_CURVE('',#115,#117,#178,.T.);
#215=EDGE_CURVE('',#118,#117,#179,.T.);
#216=EDGE_CURVE('',#116,#118,#180,.T.);
#217=EDGE_CURVE('',#117,#111,#181,.T.);
#218=EDGE_CURVE('',#118,#114,#182,.T.);
#219=EDGE_CURVE('',#119,#120,#183,.T.);
#220=EDGE_CURVE('',#121,#120,#184,.T.);
#221=EDGE_CURVE('',#121,#122,#185,.T.);
#222=EDGE_CURVE('',#122,#119,#186,.T.);
#223=EDGE_CURVE('',#120,#123,#187,.T.);
#224=EDGE_CURVE('',#124,#123,#188,.T.);
#225=EDGE_CURVE('',#124,#121,#189,.T.);
#226=EDGE_CURVE('',#123,#125,#190,.T.);
#227=EDGE_CURVE('',#126,#125,#191,.T.);
#228=EDGE_CURVE('',#126,#124,#192,.T.);
#229=EDGE_CURVE('',#125,#119,#193,.T.);
#230=EDGE_CURVE('',#122,#126,#194,.T.);
#231=EDGE_CURVE('',#127,#128,#195,.T.);
#232=EDGE_CURVE('',#129,#128,#196,.T.);
#233=EDGE_CURVE('',#129,#130,#197,.T.);
#234=EDGE_CURVE('',#130,#127,#198,.T.);
#235=EDGE_CURVE('',#128,#131,#199,.T.);
#236=EDGE_CURVE('',#132,#131,#200,.T.);
#237=EDGE_CURVE('',#132,#129,#201,.T.);
#238=EDGE_CURVE('',#131,#133,#202,.T.);
#239=EDGE_CURVE('',#134,#133,#203,.T.);
#240=EDGE_CURVE('',#134,#132,#204,.T.);
#241=EDGE_CURVE('',#133,#127,#205,.T.);
#242=EDGE_CURVE('',#130,#134,#206,.T.);
#243=ORIENTED_EDGE('',*,*,#207,.T.);
#244=ORIENTED_EDGE('',*,*,#208,.F.);
#245=ORIENTED_EDGE('',*,*,#209,.F.);
#246=ORIENTED_EDGE('',*,*,#210,.T.);
#247=ORIENTED_EDGE('',*,*,#211,.T.);
#248=ORIENTED_EDGE('',*,*,#212,.F.);
#249=ORIENTED_EDGE('',*,*,#213,.F.);
#250=ORIENTED_EDGE('',*,*,#208,.T.);
#251=ORIENTED_EDGE('',*,*,#214,.T.);
#252=ORIENTED_EDGE('',*,*,#215,.F.);
#253=ORIENTED_EDGE('',*,*,#216,.F.);
#254=ORIENTED_EDGE('',*,*,#212,.T.);
#255=ORIENTED_EDGE('',*,*,#217,.T.);
#256=ORIENTED_EDGE('',*,*,#210,.F.);
#257=ORIENTED_EDGE('',*,*,#218,.F.);
#258=ORIENTED_EDGE('',*,*,#215,.T.);
#259=ORIENTED_EDGE('',*,*,#207,.F.);
#260=ORIENTED_EDGE('',*,*,#217,.F.);
#261=ORIENTED_EDGE('',*,*,#214,.F.);
#262=ORIENTED_EDGE('',*,*,#211,.F.);
#263=ORIENTED_EDGE('',*,*,#218,.T.);
#264=ORIENTED_EDGE('',*,*,#209,.T.);
#265=ORIENTED_EDGE('',*,*,#213,.T.);
#266=ORIENTED_EDGE('',*,*,#216,.T.);
#267=ORIENTED_EDGE('',*,*,#219,.T.);
#268=ORIENTED_EDGE('',*,*,#220,.F.);
#269=ORIENTED_EDGE('',*,*,#221,.T.);
#270=ORIENTED_EDGE('',*,*,#222,.T.);
#271=ORIENTED_EDGE('',*,*,#223,.T.);
#272=ORIENTED_EDGE('',*,*,#224,.F.);
#273=ORIENTED_EDGE('',*,*,#225,.T.);
#274=ORIENTED_EDGE('',*,*,#220,.T.);
#275=ORIENTED_EDGE('',*,*,#226,.T.);
#276=ORIENTED_EDGE('',*,*,#227,.F.);
#277=ORIENTED_EDGE('',*,*,#228,.T.);
#278=ORIENTED_EDGE('',*,*,#224,.T.);
#279=ORIENTED_EDGE('',*,*,#229,.T.);
#280=ORIENTED_EDGE('',*,*,#222,.F.);
#281=ORIENTED_EDGE('',*,*,#230,.T.);
#282=ORIENTED_EDGE('',*,*,#227,.T.);
#283=ORIENTED_EDGE('',*,*,#219,.F.);
#284=ORIENTED_EDGE('',*,*,#229,.F.);
#285=ORIENTED_EDGE('',*,*,#226,.F.);
#286=ORIENTED_EDGE('',*,*,#223,.F.);
#287=ORIENTED_EDGE('',*,*,#230,.F.);
#288=ORIENTED_EDGE('',*,*,#221,.F.);
#289=ORIENTED_EDGE('',*,*,#225,.F.);
#290=ORIENTED_EDGE('',*,*,#228,.F.);
#291=ORIENTED_EDGE('',*,*,#231,.T.);
#292=ORIENTED_EDGE('',*,*,#232,.F.);
#293=ORIENTED_EDGE('',*,*,#233,.T.);
#294=ORIENTED_EDGE('',*,*,#234,.T.);
#295=ORIENTED_EDGE('',*,*,#235,.T.);
#296=ORIENTED_EDGE('',*,*,#236,.F.);
#297=ORIENTED_EDGE('',*,*,#237,.T.);
#298=ORIENTED_EDGE('',*,*,#232,.T.);
#299=ORIENTED_EDGE('',*,*,#238,.T.);
#300=ORIENTED_EDGE('',*,*,#239,.F.);
#301=ORIENTED_EDGE('',*,*,#240,.T.);
#302=ORIENTED_EDGE('',*,*,#236,.T.);
#303=ORIENTED_EDGE('',*,*,#241,.T.);
#304=ORIENTED_EDGE('',*,*,#234,.F.);
#305=ORIENTED_EDGE('',*,*,#242,.T.);
#306=ORIENTED_EDGE('',*,*,#239,.T.);
#307=ORIENTED_EDGE('',*,*,#231,.F.);
#308=ORIENTED_EDGE('',*,*,#241,.F.);
#309=ORIENTED_EDGE('',*,*,#238,.F.);
#310=ORIENTED_EDGE('',*,*,#235,.F.);
#311=ORIENTED_EDGE('',*,*,#242,.F.);
#312=ORIENTED_EDGE('',*,*,#233,.F.);
#313=ORIENTED_EDGE('',*,*,#237,.F.);
#314=ORIENTED_EDGE('',*,*,#240,.F.);
#315=EDGE_LOOP('',(#243,#244,#245,#246));
#316=EDGE_LOOP('',(#247,#248,#249,#250));
#317=EDGE_LOOP('',(#251,#252,#253,#254));
#318=EDGE_LOOP('',(#255,#256,#257,#258));
#319=EDGE_LOOP('',(#259,#260,#261,#262));
#320=EDGE_LOOP('',(#263,#264,#265,#266));
#321=EDGE_LOOP('',(#267,#268,#269,#270));
#322=EDGE_LOOP('',(#271,#272,#273,#274));
#323=EDGE_LOOP('',(#275,#276,#277,#278));
#324=EDGE_LOOP('',(#279,#280,#281,#282));
#325=EDGE_LOOP('',(#283,#284,#285,#286));
#326=EDGE_LOOP('',(#287,#288,#289,#290));
#327=EDGE_LOOP('',(#291,#292,#293,#294));
#328=EDGE_LOOP('',(#295,#296,#297,#298));
#329=EDGE_LOOP('',(#299,#300,#301,#302));
#330=EDGE_LOOP('',(#303,#304,#305,#306));
#331=EDGE_LOOP('',(#307,#308,#309,#310));
#332=EDGE_LOOP('',(#311,#312,#313,#314));
#333=FACE_BOUND('',#315,.T.);
#334=FACE_BOUND('',#316,.T.);
#335=FACE_BOUND('',#317,.T.);
#336=FACE_BOUND('',#318,.T.);
#337=FACE_BOUND('',#319,.T.);
#338=FACE_BOUND('',#320,.T.);
#339=FACE_BOUND('',#321,.T.);
#340=FACE_BOUND('',#322,.T.);
#341=FACE_BOUND('',#323,.T.);
#342=FACE_BOUND('',#324,.T.);
#343=FACE_BOUND('',#325,.T.);
#344=FACE_BOUND('',#326,.T.);
#345=FACE_BOUND('',#327,.T.);
#346=FACE_BOUND('',#328,.T.);
#347=FACE_BOUND('',#329,.T.);
#348=FACE_BOUND('',#330,.T.);
#349=FACE_BOUND('',#331,.T.);
#350=FACE_BOUND('',#332,.T.);
#351=ADVANCED_FACE('',(#333),#543,.T.);
#352=ADVANCED_FACE('',(#334),#544,.T.);
#353=ADVANCED_FACE('',(#335),#545,.T.);
#354=ADVANCED_FACE('',(#336),#546,.T.);
#355=ADVANCED_FACE('',(#337),#547,.T.);
#356=ADVANCED_FACE('',(#338),#548,.F.);
#357=ADVANCED_FACE('',(#339),#549,.T.);
#358=ADVANCED_FACE('',(#340),#550,.T.);
#359=ADVANCED_FACE('',(#341),#551,.T.);
#360=ADVANCED_FACE('',(#342),#552,.T.);
#361=ADVANCED_FACE('',(#343),#553,.T.);
#362=ADVANCED_FACE('',(#344),#554,.F.);
#363=ADVANCED_FACE('',(#345),#555,.T.);
#364=ADVANCED_FACE('',(#346),#556,.T.);
#365=ADVANCED_FACE('',(#347),#557,.T.);
#366=ADVANCED_FACE('',(#348),#558,.T.);
#367=ADVANCED_FACE('',(#349),#559,.T.);
#368=ADVANCED_FACE('',(#350),#560,.F.);
#369=AXIS2_PLACEMENT_3D('',#459,#393,$);
#370=AXIS2_PLACEMENT_3D('',#468,#398,$);
#371=AXIS2_PLACEMENT_3D('',#474,#402,$);
#372=AXIS2_PLACEMENT_3D('',#480,#406,$);
#373=AXIS2_PLACEMENT_3D('',#483,#409,$);
#374=AXIS2_PLACEMENT_3D('',#484,#410,$);
#375=AXIS2_PLACEMENT_3D('',#485,#411,$);
#376=AXIS2_PLACEMENT_3D('',#494,#416,$);
#377=AXIS2_PLACEMENT_3D('',#500,#420,$);
#378=AXIS2_PLACEMENT_3D('',#506,#424,$);
#379=AXIS2_PLACEMENT_3D('',#509,#427,$);
#380=AXIS2_PLACEMENT_3D('',#510,#428,$);
#381=AXIS2_PLACEMENT_3D('',#511,#429,$);
#382=AXIS2_PLACEMENT_3D('',#520,#434,$);
#383=AXIS2_PLACEMENT_3D('',#526,#438,$);
#384=AXIS2_PLACEMENT_3D('',#532,#442,$);
#385=AXIS2_PLACEMENT_3D('',#535,#445,$);
#386=AXIS2_PLACEMENT_3D('',#536,#446,$);
#387=AXIS2_PLACEMENT_3D('AXIS_PLACEMENT_1',#537,#447,#448);
#388=AXIS2_PLACEMENT_3D('AXIS_PLACEMENT_5',#538,#449,#450);
#389=AXIS2_PLACEMENT_3D('AXIS_PLACEMENT_11',#539,#451,#452);
#390=AXIS2_PLACEMENT_3D('AXIS_PLACEMENT_15',#540,#453,#454);
#391=AXIS2_PLACEMENT_3D('AXIS_PLACEMENT_21',#541,#455,#456);
#392=AXIS2_PLACEMENT_3D('AXIS_PLACEMENT_25',#542,#457,#458);
#393=DIRECTION('',(0.,1.,0.));
#394=DIRECTION('',(1.,0.,0.));
#395=DIRECTION('',(0.,0.,1.));
#396=DIRECTION('',(1.,0.,0.));
#397=DIRECTION('',(0.,0.,1.));
#398=DIRECTION('',(1.,0.,0.));
#399=DIRECTION('',(0.,-1.,0.));
#400=DIRECTION('',(0.,0.,1.));
#401=DIRECTION('',(0.,-1.,0.));
#402=DIRECTION('',(0.,-1.,0.));
#403=DIRECTION('',(-1.,0.,0.));
#404=DIRECTION('',(0.,0.,1.));
#405=DIRECTION('',(-1.,0.,0.));
#406=DIRECTION('',(-1.,0.,0.));
#407=DIRECTION('',(0.,1.,0.));
#408=DIRECTION('',(0.,1.,0.));
#409=DIRECTION('',(0.,0.,1.));
#410=DIRECTION('',(0.,0.,1.));
#411=DIRECTION('',(0.,1.,0.));
#412=DIRECTION('',(1.,0.,0.));
#413=DIRECTION('',(0.,0.,1.));
#414=DIRECTION('',(-1.,0.,0.));
#415=DIRECTION('',(0.,0.,1.));
#416=DIRECTION('',(1.,0.,0.));
#417=DIRECTION('',(0.,-1.,0.));
#418=DIRECTION('',(0.,0.,1.));
#419=DIRECTION('',(0.,1.,0.));
#420=DIRECTION('',(1.13869028166683E-016,-1.,0.));
#421=DIRECTION('',(-1.,-1.13869028166683E-016,0.));
#422=DIRECTION('',(0.,0.,1.));
#423=DIRECTION('',(1.,1.13869028166683E-016,0.));
#424=DIRECTION('',(-1.,0.,0.));
#425=DIRECTION('',(0.,1.,0.));
#426=DIRECTION('',(0.,-1.,0.));
#427=DIRECTION('',(0.,0.,1.));
#428=DIRECTION('',(0.,0.,1.));
#429=DIRECTION('',(0.,1.,0.));
#430=DIRECTION('',(1.,0.,0.));
#431=DIRECTION('',(0.,0.,1.));
#432=DIRECTION('',(-1.,0.,0.));
#433=DIRECTION('',(0.,0.,1.));
#434=DIRECTION('',(1.,0.,0.));
#435=DIRECTION('',(0.,-1.,0.));
#436=DIRECTION('',(0.,0.,1.));
#437=DIRECTION('',(0.,1.,0.));
#438=DIRECTION('',(1.13869028166683E-016,-1.,0.));
#439=DIRECTION('',(-1.,-1.13869028166683E-016,0.));
#440=DIRECTION('',(0.,0.,1.));
#441=DIRECTION('',(1.,1.13869028166683E-016,0.));
#442=DIRECTION('',(-1.,0.,0.));
#443=DIRECTION('',(0.,1.,0.));
#444=DIRECTION('',(0.,-1.,0.));
#445=DIRECTION('',(0.,0.,1.));
#446=DIRECTION('',(0.,0.,1.));
#447=DIRECTION('DIRECTION2',(0.,0.,1.));
#448=DIRECTION('DIRECTION3',(1.,0.,0.));
#449=DIRECTION('DIRECTION6',(0.,0.,1.));
#450=DIRECTION('DIRECTION7',(1.,0.,0.));
#451=DIRECTION('DIRECTION12',(0.,0.,1.));
#452=DIRECTION('DIRECTION13',(1.,0.,0.));
#453=DIRECTION('DIRECTION16',(0.,0.,1.));
#454=DIRECTION('DIRECTION17',(1.,0.,0.));
#455=DIRECTION('DIRECTION22',(0.,0.,1.));
#456=DIRECTION('DIRECTION23',(1.,0.,0.));
#457=DIRECTION('DIRECTION26',(0.,0.,1.));
#458=DIRECTION('DIRECTION27',(1.,0.,0.));
#459=CARTESIAN_POINT('',(2.15,3.,0.));
#460=CARTESIAN_POINT('',(0.,3.,0.16));
#461=CARTESIAN_POINT('',(0.,3.,0.16));
#462=CARTESIAN_POINT('',(4.3,3.,0.16));
#463=CARTESIAN_POINT('',(4.3,3.,0.));
#464=CARTESIAN_POINT('',(4.3,3.,0.));
#465=CARTESIAN_POINT('',(0.,3.,0.));
#466=CARTESIAN_POINT('',(0.,3.,0.));
#467=CARTESIAN_POINT('',(0.,3.,0.));
#468=CARTESIAN_POINT('',(4.3,1.5,0.));
#469=CARTESIAN_POINT('',(4.3,3.,0.16));
#470=CARTESIAN_POINT('',(4.3,0.,0.16));
#471=CARTESIAN_POINT('',(4.3,0.,0.));
#472=CARTESIAN_POINT('',(4.3,0.,0.));
#473=CARTESIAN_POINT('',(4.3,3.,0.));
#474=CARTESIAN_POINT('',(2.15,0.,0.));
#475=CARTESIAN_POINT('',(4.3,0.,0.16));
#476=CARTESIAN_POINT('',(0.,0.,0.16));
#477=CARTESIAN_POINT('',(0.,0.,0.));
#478=CARTESIAN_POINT('',(0.,0.,0.));
#479=CARTESIAN_POINT('',(4.3,0.,0.));
#480=CARTESIAN_POINT('',(0.,1.5,0.));
#481=CARTESIAN_POINT('',(0.,0.,0.16));
#482=CARTESIAN_POINT('',(0.,0.,0.));
#483=CARTESIAN_POINT('',(2.15,1.5,0.16));
#484=CARTESIAN_POINT('',(2.15,1.5,0.));
#485=CARTESIAN_POINT('',(1.95,2.6,0.));
#486=CARTESIAN_POINT('',(3.9,2.6,0.9));
#487=CARTESIAN_POINT('',(0.,2.6,0.9));
#488=CARTESIAN_POINT('',(3.9,2.6,0.9));
#489=CARTESIAN_POINT('',(3.9,2.6,0.));
#490=CARTESIAN_POINT('',(3.9,2.6,0.));
#491=CARTESIAN_POINT('',(3.9,2.6,0.));
#492=CARTESIAN_POINT('',(0.,2.6,0.));
#493=CARTESIAN_POINT('',(0.,2.6,0.));
#494=CARTESIAN_POINT('',(3.9,1.3,0.));
#495=CARTESIAN_POINT('',(3.9,4.44089209850063E-016,0.9));
#496=CARTESIAN_POINT('',(3.9,4.44089209850063E-016,0.9));
#497=CARTESIAN_POINT('',(3.9,4.44089209850063E-016,0.));
#498=CARTESIAN_POINT('',(3.9,4.44089209850063E-016,0.));
#499=CARTESIAN_POINT('',(3.9,4.44089209850063E-016,0.));
#500=CARTESIAN_POINT('',(1.95,2.22044604925032E-016,0.));
#501=CARTESIAN_POINT('',(0.,0.,0.9));
#502=CARTESIAN_POINT('',(0.,0.,0.9));
#503=CARTESIAN_POINT('',(0.,0.,0.));
#504=CARTESIAN_POINT('',(0.,0.,0.));
#505=CARTESIAN_POINT('',(0.,0.,0.));
#506=CARTESIAN_POINT('',(0.,1.3,0.));
#507=CARTESIAN_POINT('',(0.,2.6,0.9));
#508=CARTESIAN_POINT('',(0.,2.6,0.));
#509=CARTESIAN_POINT('',(1.95,1.3,0.9));
#510=CARTESIAN_POINT('',(1.95,1.3,0.));
#511=CARTESIAN_POINT('',(1.95,2.6,0.));
#512=CARTESIAN_POINT('',(3.9,2.6,0.2));
#513=CARTESIAN_POINT('',(0.,2.6,0.2));
#514=CARTESIAN_POINT('',(3.9,2.6,0.2));
#515=CARTESIAN_POINT('',(3.9,2.6,0.));
#516=CARTESIAN_POINT('',(3.9,2.6,0.));
#517=CARTESIAN_POINT('',(3.9,2.6,0.));
#518=CARTESIAN_POINT('',(0.,2.6,0.));
#519=CARTESIAN_POINT('',(0.,2.6,0.));
#520=CARTESIAN_POINT('',(3.9,1.3,0.));
#521=CARTESIAN_POINT('',(3.9,4.44089209850063E-016,0.2));
#522=CARTESIAN_POINT('',(3.9,4.44089209850063E-016,0.2));
#523=CARTESIAN_POINT('',(3.9,4.44089209850063E-016,0.));
#524=CARTESIAN_POINT('',(3.9,4.44089209850063E-016,0.));
#525=CARTESIAN_POINT('',(3.9,4.44089209850063E-016,0.));
#526=CARTESIAN_POINT('',(1.95,2.22044604925031E-016,0.));
#527=CARTESIAN_POINT('',(0.,0.,0.2));
#528=CARTESIAN_POINT('',(0.,0.,0.2));
#529=CARTESIAN_POINT('',(0.,0.,0.));
#530=CARTESIAN_POINT('',(0.,0.,0.));
#531=CARTESIAN_POINT('',(0.,0.,0.));
#532=CARTESIAN_POINT('',(0.,1.3,0.));
#533=CARTESIAN_POINT('',(0.,2.6,0.2));
#534=CARTESIAN_POINT('',(0.,2.6,0.));
#535=CARTESIAN_POINT('',(1.95,1.3,0.2));
#536=CARTESIAN_POINT('',(1.95,1.3,0.));
#537=CARTESIAN_POINT('CARTESIAN_POINT4',(0.,0.,0.));
#538=CARTESIAN_POINT('CARTESIAN_POINT8',(0.,0.,0.));
#539=CARTESIAN_POINT('CARTESIAN_POINT14',(0.199999999999999,0.199999999999999,
0.16));
#540=CARTESIAN_POINT('CARTESIAN_POINT18',(0.,0.,0.));
#541=CARTESIAN_POINT('CARTESIAN_POINT24',(0.199999999999999,0.199999999999999,
-0.2));
#542=CARTESIAN_POINT('CARTESIAN_POINT28',(0.,0.,0.));
#543=PLANE('',#369);
#544=PLANE('',#370);
#545=PLANE('',#371);
#546=PLANE('',#372);
#547=PLANE('',#373);
#548=PLANE('',#374);
#549=PLANE('',#375);
#550=PLANE('',#376);
#551=PLANE('',#377);
#552=PLANE('',#378);
#553=PLANE('',#379);
#554=PLANE('',#380);
#555=PLANE('',#381);
#556=PLANE('',#382);
#557=PLANE('',#383);
#558=PLANE('',#384);
#559=PLANE('',#385);
#560=PLANE('',#386);
#561=CLOSED_SHELL('',(#351,#352,#353,#354,#355,#356));
#562=CLOSED_SHELL('',(#357,#358,#359,#360,#361,#362));
#563=CLOSED_SHELL('',(#363,#364,#365,#366,#367,#368));
#564=MANIFOLD_SOLID_BREP('',#561);
#565=MANIFOLD_SOLID_BREP('',#562);
#566=MANIFOLD_SOLID_BREP('',#563);
#567=ADVANCED_BREP_SHAPE_REPRESENTATION('Leiterplatte_3',(#564),#107);
#568=ADVANCED_BREP_SHAPE_REPRESENTATION('Leiterplatte_3_Bauteile_1',(#565),
#108);
#569=ADVANCED_BREP_SHAPE_REPRESENTATION('Leiterplatte_3_Bauteile_2',(#566),
#109);
ENDSEC;
END-ISO-10303-21;
